Boring less Guitar Plucking/Fingering Practice – Lesson 1

[adsense_id="2"]
Just try to practice the following plucking.
1st string e||---------------------------||    (thin wire)
2nd string b||----------10---------------||
3rd string g||?-9-11-12----12-11-9-11---?||  <-- this means repeat
4th string d||?-------------------------?||
5th string a||---------------------------||
6th string e||---------------------------||

[adsense_id="3"]

e||---------------------------||
b||---------------------------||
g||?---------11--------------?||
d||?-9-10-12----12-10-9-10---?||
a||---------------------------||
e||---------------------------||

[adsense_id="1"]

e||------------------------||
b||------------------------||
g||?------12-11-9-11----9-?||
d||?-9-10------------12---?||
a||------------------------||
e||------------------------||

[adsense_id="3"]



e|----------------|  / ------------
b|--------8-10----| |  --10b11r-8--  | could continue like this.
g|----7-9---------| |  ------------  |
a|----------------|   ------------ /

[adsense_id="2"]


b|-------------------------|
g|--11-10-8---8-10-8-10----|
d|----------9--------------|
a|-------------------------|


e|------10----------12-10----|
b|------------11-12-------11-|
g|----9----12----------------|



b|-----------10---------|
g|---9-11-12----12-11---|

Practice all the above tab. It will make some tasty sounds and melody. So you shouldn't be bored with this. Thank you everybody.

[adsense_id="4"]




Shaharia is a professional software engineer with more than 10 years of experience in the relevant fields. Digital ad certified, cloud platform architect, Big data enthusiasts, tech early adopters.

Site Footer